TEAM PAGES


Winnipeg Jets




Pos Name Team
GP
G
A
Pts
+/-
PIM
PPG
SHG
Shots
SH%
CKristian VesalainenWIN823339
72
-8244123813,9
RPatrik LaineWIN823537
72
-9109323714,8
LSonny MilanoWIN822444
68
-18244022810,5
CBoone JennerWIN823033
63
-161472021114,2
RNikolaj EhlersWIN823323
56
-6245021915,1
DTyler MyersWIN821140
51
-1028601378,0
LBlake WheelerWIN821724
41
-944001849,2
DDanny DekeyserWIN82527
32
-72000618,2
DJacob TroubaWIN82230
32
-210600912,2
LKyle ConnorWIN821516
31
661011013,6
DJosh MorrisseyWIN82328
31
-59700823,7
CDylan StromeWIN821014
24
949019610,4
RBryan LittleWIN82911
20
228101068,5
DDmitri KulikovWIN82217
19
1620385,3
DMitchell Vande SompelWIN82414
18
618203013,3
RJoel ArmiaWIN82108
18
612001128,9
LBrendan LemieuxWIN82107
17
762001019,9
CAdam LowryWIN8238
11
594001013,0
D*Rasmus SandinWIN000
0
000000

Pos Name Team
GP
G
A
Pts
W
L
OTL
L
Pct
SO
GAA
GJaroslav HalakWIN11000631187,80
2,97
GConnor HellebuyckWIN7104431320888,33
3,09




Blake Wheeler L
Born: 31/8/1986 Age: 35
Condition: 100 (Healthy)
Salary: 5 200 000$ Contract left: 2 year(s)
Status: is happy to play for the team.
PLAYER SKILLS
Shooting: Good Playmaking: Very Good Stickhandling: Good
Checking: Good Positioning: Good Hitting: Good
Skating: Very Good Endurance: Average Penalty: Good
Faceoffs: Mediocre Leadership: Good Strength: Very Good
Fighting: Very Bad

NHL Statistics 2021-2022: 82. 17+24=41 -9 44 PIM
NHL totals: 499. 142 + 188 = 330 317 PIM

Regular season extrastats:

PPG: 0 SHG: 0 GWG: 1 +/-: -9 Shots: 184 Pct: 9.24%
Giveaways: 68 Takeaways: 14 Shots blocked: 37
Hits given: 100 Hits taken: 171 Fights: 0 Fights won: 0
Faceoffs: 39 Faceoffs won: 7 %: 17,9

Streaks, records and weekly stats:

Current streaks: GP: 431 , G: 1 , PTS: 3
Best streaks: G: 2 , PTS: 3
Records: G: 33 A: 52 PTS: 83

This week NHL: 0. 0+ 0= 0
This month NHL: 4. 2+ 1= 3
Last NHL game:
SEASON RATINGS
8-6-8-10-7-7-7-8-6-7-8-7-6-7-7-7-9-6-8-7-6-7-8-7-7-9-7-6-8-7-7-5-7-7-8-9-6-7-8-8-5-9-7-6-10-7-7-6-7-8-7-9-7-5-7-8-7-8-6-7-8-8-8-7-7-6-8-7-7-8-7-7-6-5-8-7-6-10-7-9-7-9-
PLAYER HISTORY
Transactions
----------------------

Awards & All-Stars
----------------------

Stanley Cups
----------------------

Player of the Month
----------------------

Player of the Week
----------------------
>named Player Of The Week on 30-12-2017

Milestones
----------------------

Hat-tricks
----------------------
>recorded a hat trick against the Pittsburgh Penguins on 18-11-2019

Injuries & Suspensions
----------------------

National Team
----------------------



Back to the top


Bryan Little R
Born: 12/11/1987 Age: 34
Condition: 100 (Healthy)
Salary: 2 500 000$ Contract left: 3 year(s)
Status: is happy to play for the team.
PLAYER SKILLS
Shooting: Good Playmaking: Very Good Stickhandling: Good
Checking: Average Positioning: Good Hitting: Average
Skating: Very Good Endurance: Mediocre Penalty: Very Good
Faceoffs: Mediocre Leadership: Good Strength: Good
Fighting: Very Bad

NHL Statistics 2021-2022: 82. 9+11=20 +2 28 PIM
NHL totals: 419. 61 + 68 = 129 102 PIM

Regular season extrastats:

PPG: 1 SHG: 0 GWG: 1 +/-: 2 Shots: 106 Pct: 8.49%
Giveaways: 69 Takeaways: 81 Shots blocked: 13
Hits given: 73 Hits taken: 127 Fights: 0 Fights won: 0
Faceoffs: 24 Faceoffs won: 7 %: 29,2

Streaks, records and weekly stats:

Current streaks: GP: 431 , G:-17 , PTS:-5
Best streaks: G: 2 , PTS: 3
Records: G: 20 A: 41 PTS: 64

This week NHL: 0. 0+ 0= 0
This month NHL: 4. 0+ 0= 0
Last NHL game:
SEASON RATINGS
6-6-7-7-5-7-7-7-5-5-7-7-6-7-5-5-6-7-6-5-6-6-6-5-7-7-7-5-6-6-6-5-4-4-6-5-5-6-7-7-6-6-7-7-7-6-8-7-8-7-7-7-8-7-6-6-7-7-9-8-9-6-6-7-7-7-7-7-6-7-7-5-6-6-5-6-9-8-6-5-4-5-
PLAYER HISTORY
Transactions
----------------------

Awards & All-Stars
----------------------

Stanley Cups
----------------------

Player of the Month
----------------------

Player of the Week
----------------------

Milestones
----------------------
>scored his first NHL goal on 13-10-2017 against the Pittsburgh Penguins

Hat-tricks
----------------------

Injuries & Suspensions
----------------------

National Team
----------------------



Back to the top


Nikolaj Ehlers R
Born: 14/2/1996 Age: 26
Condition: 100 (Healthy)
Salary: 6 000 000$ Contract left: 4 year(s)
Status: is happy to play for the team.
PLAYER SKILLS
Shooting: Very Good Playmaking: Excellent Stickhandling: Very Good
Checking: Good Positioning: Good Hitting: Average
Skating: Excellent Endurance: Very Good Penalty: Good
Faceoffs: Very Good Leadership: Mediocre Strength: Good
Fighting: Poor

NHL Statistics 2021-2022: 82. 33+23=56 -6 24 PIM
NHL totals: 443. 171 + 176 = 347 162 PIM

Regular season extrastats:

PPG: 5 SHG: 0 GWG: 2 +/-: -6 Shots: 219 Pct: 15.07%
Giveaways: 82 Takeaways: 8 Shots blocked: 42
Hits given: 88 Hits taken: 203 Fights: 0 Fights won: 0
Faceoffs: 38 Faceoffs won: 20 %: 52,6

Streaks, records and weekly stats:

Current streaks: GP: 431 , G:-2 , PTS: 1
Best streaks: G: 2 , PTS: 6
Records: G: 42 A: 42 PTS: 84

This week NHL: 0. 0+ 0= 0
This month NHL: 4. 2+ 2= 4
Last NHL game:
SEASON RATINGS
7-8-7-8-7-7-7-7-7-8-7-8-5-8-8-5-8-7-9-7-8-7-7-7-6-9-9-8-7-7-8-8-7-8-6-7-6-7-7-9-7-7-8-6-7-9-7-6-7-8-6-7-10-8-8-7-8-8-6-8-6-8-8-6-7-7-10-6-6-8-6-6-7-8-9-7-7-8-10-8-6-8-
PLAYER HISTORY
Transactions
----------------------

Awards & All-Stars
----------------------
>named to Team World in 2019 All-Star Game
>named to Team World in 2020 All-Star Game

Stanley Cups
----------------------

Player of the Month
----------------------

Player of the Week
----------------------
>named Player Of The Week on 4-4-2020

Milestones
----------------------

Hat-tricks
----------------------
>recorded a hat trick against the Carolina Hurricanes on 6-12-2018
>recorded a hat trick against the Arizona Coyotes on 22-12-2018
>recorded a hat trick against the Buffalo Sabres on 30-3-2020
>recorded a hat trick against the Philadelphia Flyers on 1-4-2020

Injuries & Suspensions
----------------------

National Team
----------------------



Back to the top


Joel Armia R
Born: 31/5/1993 Age: 28
Condition: 100 (Healthy)
Salary: 2 250 000$ Contract left: 1 year(s)
Status: is happy to play for the team.
PLAYER SKILLS
Shooting: Good Playmaking: Good Stickhandling: Good
Checking: Good Positioning: Good Hitting: Good
Skating: Good Endurance: Average Penalty: Good
Faceoffs: Good Leadership: Mediocre Strength: Good
Fighting: Mediocre

NHL Statistics 2021-2022: 82. 10+8=18 +6 12 PIM
NHL totals: 648. 108 + 141 = 249 174 PIM

Regular season extrastats:

PPG: 0 SHG: 0 GWG: 1 +/-: 6 Shots: 112 Pct: 8.93%
Giveaways: 64 Takeaways: 97 Shots blocked: 9
Hits given: 111 Hits taken: 86 Fights: 0 Fights won: 0
Faceoffs: 12 Faceoffs won: 5 %: 41,7

Streaks, records and weekly stats:

Current streaks: GP: 242 , G: 1 , PTS: 1
Best streaks: G: 1 , PTS: 2
Records: G: 13 A: 13 PTS: 26

This week NHL: 0. 0+ 0= 0
This month NHL: 4. 1+ 0= 1
Last NHL game:
SEASON RATINGS
5-6-9-6-4-6-5-5-6-4-5-5-5-6-7-6-5-6-5-6-7-5-6-6-6-5-5-5-4-4-6-5-4-5-5-6-5-5-7-6-6-5-6-5-4-4-5-5-5-7-6-6-6-7-5-5-5-6-4-6-4-5-7-6-5-6-7-4-6-5-5-5-6-6-6-6-5-6-5-4-6-6-
PLAYER HISTORY
Transactions
----------------------

Awards & All-Stars
----------------------

Stanley Cups
----------------------

Player of the Month
----------------------

Player of the Week
----------------------

Milestones
----------------------

Hat-tricks
----------------------

Injuries & Suspensions
----------------------

National Team
----------------------
>named to Team Finland for World Championships 2021
>registered 2 goals and 4 assists for 6 points with +/- 0 in 4 games with Team Finland in the World Championships 2021



Back to the top


Adam Lowry C
Born: 29/3/1993 Age: 29
Condition: 100 (Healthy)
Salary: 2 500 000$ Contract left: 1 year(s)
Status: is happy to play for the team.
PLAYER SKILLS
Shooting: Good Playmaking: Good Stickhandling: Average
Checking: Good Positioning: Good Hitting: Good
Skating: Good Endurance: Average Penalty: Good
Faceoffs: Good Leadership: Average Strength: Good
Fighting: Good

NHL Statistics 2021-2022: 82. 3+8=11 +5 94 PIM
NHL totals: 1083. 212 + 263 = 475 488 PIM

Regular season extrastats:

PPG: 0 SHG: 0 GWG: 0 +/-: 5 Shots: 101 Pct: 2.97%
Giveaways: 45 Takeaways: 95 Shots blocked: 8
Hits given: 111 Hits taken: 65 Fights: 16 Fights won: 2
Faceoffs: 358 Faceoffs won: 148 %: 41,3

Streaks, records and weekly stats:

Current streaks: GP: 431 , G:-26 , PTS:-17
Best streaks: G: 1 , PTS: 2
Records: G: 11 A: 12 PTS: 23

This week NHL: 0. 0+ 0= 0
This month NHL: 4. 0+ 0= 0
Last NHL game:
SEASON RATINGS
5-7-8-6-6-8-7-6-7-5-5-6-5-6-7-5-6-6-6-5-7-5-7-5-6-7-5-7-5-6-4-5-4-4-4-6-5-5-5-5-6-5-6-5-4-5-6-5-7-5-5-6-6-6-6-6-7-6-5-5-5-6-5-6-8-6-7-6-6-4-6-6-5-5-6-8-5-6-5-5-5-6-
PLAYER HISTORY
Transactions
----------------------

Awards & All-Stars
----------------------

Stanley Cups
----------------------

Player of the Month
----------------------

Player of the Week
----------------------

Milestones
----------------------

Hat-tricks
----------------------

Injuries & Suspensions
----------------------

National Team
----------------------



Back to the top


Tyler Myers D
Born: 1/2/1990 Age: 32
Condition: 100 (Healthy)
Salary: 6 000 000$ Contract left: 3 year(s)
Status: is happy to play for the team.
PLAYER SKILLS
Shooting: Very Good Playmaking: Good Stickhandling: Good
Checking: Very Good Positioning: Very Good Hitting: Very Good
Skating: Very Good Endurance: Mediocre Penalty: Good
Faceoffs: Poor Leadership: Average Strength: Very Good
Fighting: Bad

NHL Statistics 2021-2022: 82. 11+40=51 -10 28 PIM
NHL totals: 1018. 192 + 404 = 596 1198 PIM

Regular season extrastats:

PPG: 6 SHG: 0 GWG: 1 +/-: -10 Shots: 137 Pct: 8.03%
Giveaways: 67 Takeaways: 114 Shots blocked: 89
Hits given: 274 Hits taken: 118 Fights: 0 Fights won: 0
Faceoffs: 0 Faceoffs won: 0 %: 0,0

Streaks, records and weekly stats:

Current streaks: GP: 431 , G: 1 , PTS: 1
Best streaks: G: 1 , PTS: 4
Records: G: 16 A: 41 PTS: 55

This week NHL: 0. 0+ 0= 0
This month NHL: 4. 1+ 2= 3
Last NHL game:
SEASON RATINGS
7-7-8-8-10-6-9-6-7-8-7-8-7-9-8-10-10-8-9-7-7-8-9-8-9-7-9-8-7-8-8-7-6-8-8-8-8-7-9-9-7-7-8-7-8-8-6-7-9-7-7-7-10-7-9-8-8-7-6-7-7-7-8-6-7-10-8-7-9-7-8-8-8-8-9-8-10-8-8-7-8-9-
PLAYER HISTORY
Transactions
----------------------

Awards & All-Stars
----------------------

Stanley Cups
----------------------

Player of the Month
----------------------

Player of the Week
----------------------

Milestones
----------------------

Hat-tricks
----------------------

Injuries & Suspensions
----------------------

National Team
----------------------
>named to Team USA for World Championships 2021
>registered 0 goals and 7 assists for 7 points with +/- 5 in 6 games with Team USA in the World Championships 2021
>won gold with Team USA in the World Championships 2021



Back to the top


Jacob Trouba D
Born: 26/2/1994 Age: 28
Condition: 100 (Healthy)
Salary: 6 250 000$ Contract left: 5 year(s)
Status: is happy to play for the team.
PLAYER SKILLS
Shooting: Good Playmaking: Good Stickhandling: Average
Checking: Very Good Positioning: Very Good Hitting: Superb
Skating: Good Endurance: Excellent Penalty: Good
Faceoffs: Mediocre Leadership: Average Strength: Very Good
Fighting: Good

NHL Statistics 2021-2022: 82. 2+30=32 -2 106 PIM
NHL totals: 1184. 71 + 199 = 270 3144 PIM

Regular season extrastats:

PPG: 0 SHG: 0 GWG: 0 +/-: -2 Shots: 91 Pct: 2.2%
Giveaways: 77 Takeaways: 234 Shots blocked: 81
Hits given: 343 Hits taken: 133 Fights: 20 Fights won: 6
Faceoffs: 0 Faceoffs won: 0 %: 0,0

Streaks, records and weekly stats:

Current streaks: GP: 123 , G:-6 , PTS:-2
Best streaks: G: 1 , PTS: 3
Records: G: 11 A: 42 PTS: 52

This week NHL: 0. 0+ 0= 0
This month NHL: 4. 0+ 2= 2
Last NHL game:
SEASON RATINGS
10-8-7-9-7-10-7-6-8-7-8-10-6-7-10-7-8-8-8-9-7-7-9-9-10-8-9-7-8-8-7-7-8-7-9-6-9-7-6-10-7-10-10-7-7-7-8-8-10-8-8-9-9-8-8-8-9-9-6-9-8-7-10-7-7-8-8-7-9-6-9-8-9-9-8-8-9-7-8-7-9-9-
PLAYER HISTORY
Transactions
----------------------

Awards & All-Stars
----------------------

Stanley Cups
----------------------

Player of the Month
----------------------

Player of the Week
----------------------

Milestones
----------------------

Hat-tricks
----------------------

Injuries & Suspensions
----------------------

National Team
----------------------



Back to the top


Connor Hellebuyck G
Born: 19/5/1993 Age: 28
Condition: 100 (Healthy)
Salary: 4 600 000$ Contract left: 6 year(s)
Status: is happy to play for the team.
PLAYER SKILLS
Glove: Very Good Blocker: Very Good Stickhandling: Excellent
Pads: Very Good Angles: Very Good Agility: Very Good
Skating: Very Good Endurance: Good Penalty: Very Good
Rebounds: Very Good Leadership: Average Strength: Good
Fighting: Bad

NHL Statistics 2021-2022: 71 GP, 4292 mins, 221 GA, 6 EN, 3 SO, 3,09 GAA,
W-L-T: 31-32-8 Saves: 1668 S%,883
NHL totals: 242 GP, 731 GA, 9 SO, 5531 saves

Regular season extrastats:

GA: 221 Shutouts: 3 Saves: 1668 Save pct: 86.75%
Minutes: 4292 EN:6 GAA: 3,09

Streaks, records and weekly stats:

Records: GAA: 2 SO: 2 Save%: 92

Last NHL game:
SEASON RATINGS
8-4-5-9-5-8-6-5-7-9-6-4-8-7-10-8-9-4-9-5-6-4-9-9-7-10-5-9-10-4-5-6-4-9-8-6-7-7-9-8-6-7-9-5-5-4-5-5-9-9-5-8-6-8-10-8-8-5-4-8-4-6-8-7-6-8-6-6-9-4-6-s-s-s-s-s-s-s-s-s-s-s-
PLAYER HISTORY
Transactions
----------------------

Awards & All-Stars
----------------------

Stanley Cups
----------------------

Player of the Month
----------------------

Player of the Week
----------------------

Milestones
----------------------

Hat-tricks
----------------------

Injuries & Suspensions
----------------------

National Team
----------------------
>named to Team USA for World Championships 2021
>registered 0 wins and allowed 0 goals on 0 shots in 0 games with Team USA in the World Championships 2021
>won gold with Team USA in the World Championships 2021



Back to the top


Kyle Connor L
Born: 9/12/1996 Age: 25
Condition: 100 (Healthy)
Salary: 6 200 000$ Contract left: 2 year(s)
Status: is happy to play for the team.
PLAYER SKILLS
Shooting: Very Good Playmaking: Very Good Stickhandling: Very Good
Checking: Average Positioning: Average Hitting: Average
Skating: Very Good Endurance: Good Penalty: Very Good
Faceoffs: Very Good Leadership: Average Strength: Good
Fighting: Mediocre

NHL Statistics 2021-2022: 82. 15+16=31 +6 6 PIM
NHL totals: 668. 153 + 291 = 444 247 PIM

Regular season extrastats:

PPG: 1 SHG: 0 GWG: 4 +/-: 6 Shots: 110 Pct: 13.64%
Giveaways: 62 Takeaways: 52 Shots blocked: 8
Hits given: 39 Hits taken: 143 Fights: 0 Fights won: 0
Faceoffs: 27 Faceoffs won: 16 %: 59,3

Streaks, records and weekly stats:

Current streaks: GP: 431 , G:-12 , PTS:-2
Best streaks: G: 2 , PTS: 4
Records: G: 34 A: 59 PTS: 92

This week NHL: 0. 0+ 0= 0
This month NHL: 4. 0+ 1= 1
Last NHL game:
SEASON RATINGS
6-4-6-5-5-7-6-5-5-6-5-4-5-7-7-6-6-7-7-7-7-7-7-5-8-7-6-4-5-5-6-5-6-5-6-6-4-6-5-7-4-6-6-7-7-4-6-6-7-7-6-6-6-6-5-8-8-7-7-7-7-6-6-6-8-7-6-6-6-7-5-5-6-5-4-7-5-6-5-4-6-5-
PLAYER HISTORY
Transactions
----------------------

Awards & All-Stars
----------------------
>nominated for Lady Byng Trophy season 2017-18
>named to Team North America in 2019 All-Star Game
>nominated for Hart Trophy season 2018-19
>nominated for Lady Byng Trophy season 2018-19
>won Hart Trophy season 2018-19
>won Lady Byng Trophy season 2018-19
>won Art Ross Trophy season 2018-19
>named to 1st All-Star Team in season 2018-2019
>named to Team North America in 2020 All-Star Game
>nominated for Hart Trophy season 2019-20
>nominated for Lady Byng Trophy season 2019-20
>won Lady Byng Trophy season 2019-20
>named to 2nd All-Star Team in season 2019-2020

Stanley Cups
----------------------

Player of the Month
----------------------

Player of the Week
----------------------

Milestones
----------------------

Hat-tricks
----------------------
>recorded a hat trick against the Boston Bruins on 13-2-2019

Injuries & Suspensions
----------------------

National Team
----------------------



Back to the top


Josh Morrissey D
Born: 28/3/1995 Age: 27
Condition: 100 (Healthy)
Salary: 4 000 000$ Contract left: 5 year(s)
Status: is happy to play for the team.
PLAYER SKILLS
Shooting: Good Playmaking: Good Stickhandling: Good
Checking: Good Positioning: Good Hitting: Good
Skating: Good Endurance: Excellent Penalty: Average
Faceoffs: Average Leadership: Average Strength: Good
Fighting: Good

NHL Statistics 2021-2022: 82. 3+28=31 -5 97 PIM
NHL totals: 359. 29 + 122 = 151 183 PIM

Regular season extrastats:

PPG: 0 SHG: 0 GWG: 1 +/-: -5 Shots: 82 Pct: 3.66%
Giveaways: 50 Takeaways: 35 Shots blocked: 80
Hits given: 179 Hits taken: 100 Fights: 17 Fights won: 3
Faceoffs: 0 Faceoffs won: 0 %: 0,0

Streaks, records and weekly stats:

Current streaks: GP: 343 , G:-11 , PTS: 1
Best streaks: G: 1 , PTS: 6
Records: G: 9 A: 36 PTS: 45

This week NHL: 0. 0+ 0= 0
This month NHL: 4. 0+ 1= 1
Last NHL game:
SEASON RATINGS
6-8-7-7-6-9-8-7-7-6-7-7-7-8-8-6-8-6-6-7-8-6-7-6-8-8-7-7-9-6-6-7-7-7-6-8-6-7-7-6-7-7-8-7-6-6-8-5-5-7-6-8-8-7-8-8-9-6-6-9-6-7-8-7-9-8-6-8-7-7-8-7-8-8-6-6-7-7-8-7-8-7-
PLAYER HISTORY
Transactions
----------------------

Awards & All-Stars
----------------------

Stanley Cups
----------------------

Player of the Month
----------------------

Player of the Week
----------------------

Milestones
----------------------

Hat-tricks
----------------------

Injuries & Suspensions
----------------------

National Team
----------------------



Back to the top


Brendan Lemieux L
Born: 15/3/1996 Age: 26
Condition: 100 (Healthy)
Salary: 1 000 000$ Contract left: 1 year(s)
Status: is happy to play for the team.
PLAYER SKILLS
Shooting: Average Playmaking: Good Stickhandling: Good
Checking: Good Positioning: Good Hitting: Average
Skating: Good Endurance: Good Penalty: Average
Faceoffs: Good Leadership: Mediocre Strength: Good
Fighting: Mediocre

NHL Statistics 2021-2022: 82. 10+7=17 +7 62 PIM
NHL totals: 206. 21 + 32 = 53 108 PIM

Regular season extrastats:

PPG: 0 SHG: 0 GWG: 1 +/-: 7 Shots: 101 Pct: 9.9%
Giveaways: 62 Takeaways: 59 Shots blocked: 5
Hits given: 89 Hits taken: 90 Fights: 0 Fights won: 0
Faceoffs: 18 Faceoffs won: 7 %: 38,9

Streaks, records and weekly stats:

Current streaks: GP: 123 , G:-43 , PTS:-6
Best streaks: G: 2 , PTS: 3
Records: G: 7 A: 7 PTS: 14

This week NHL: 0. 0+ 0= 0
This month NHL: 4. 0+ 0= 0
Last NHL game:
SEASON RATINGS
7-6-8-7-7-6-6-7-5-4-5-5-5-7-5-5-5-6-6-4-5-5-6-5-6-5-5-5-5-5-4-5-6-5-5-8-6-4-6-4-6-5-5-5-5-5-5-5-5-6-5-6-6-6-5-6-6-6-5-5-4-5-4-5-5-5-5-4-6-5-5-4-5-6-5-6-4-6-4-5-5-5-
PLAYER HISTORY
Transactions
----------------------

Awards & All-Stars
----------------------

Stanley Cups
----------------------

Player of the Month
----------------------

Player of the Week
----------------------

Milestones
----------------------

Hat-tricks
----------------------

Injuries & Suspensions
----------------------

National Team
----------------------



Back to the top


Patrik Laine R
Born: 19/4/1998 Age: 23
Condition: 100 (Healthy)
Salary: 10 000 000$ Contract left: 5 year(s)
Status: is happy to play for the team.
PLAYER SKILLS
Shooting: Superb Playmaking: Excellent Stickhandling: Excellent
Checking: Good Positioning: Good Hitting: Good
Skating: Excellent Endurance: Very Good Penalty: Good
Faceoffs: Very Good Leadership: Average Strength: Very Good
Fighting: Poor

NHL Statistics 2021-2022: 82. 35+37=72 -9 10 PIM
NHL totals: 541. 151 + 228 = 379 355 PIM

Regular season extrastats:

PPG: 9 SHG: 3 GWG: 4 +/-: -9 Shots: 237 Pct: 14.77%
Giveaways: 56 Takeaways: 28 Shots blocked: 48
Hits given: 202 Hits taken: 167 Fights: 0 Fights won: 0
Faceoffs: 190 Faceoffs won: 102 %: 53,7

Streaks, records and weekly stats:

Current streaks: GP: 82 , G:-2 , PTS:-1
Best streaks: G: 7 , PTS: 11
Records: G: 43 A: 47 PTS: 80

This week NHL: 0. 0+ 0= 0
This month NHL: 4. 1+ 2= 3
Last NHL game:
SEASON RATINGS
7-10-7-6-7-7-7-8-9-6-10-7-10-7-7-8-9-8-10-9-10-7-8-7-8-9-7-8-7-9-6-8-9-8-8-7-7-8-8-5-10-8-8-7-8-8-6-7-9-9-10-8-8-10-10-7-8-8-9-7-9-8-8-7-6-7-8-9-6-8-8-9-8-10-9-10-8-10-7-8-9-8-
PLAYER HISTORY
Transactions
----------------------

Awards & All-Stars
----------------------
>named to Team World in 2018 All-Star Game
>won Maurice Richard Trophy season 2017-18

Stanley Cups
----------------------

Player of the Month
----------------------
>named Player Of The Month on 1-3-2018

Player of the Week
----------------------
>named Player Of The Week on 10-2-2018
>named Player Of The Week on 27-11-2021
>named Player Of The Week on 12-2-2022

Milestones
----------------------

Hat-tricks
----------------------
>recorded a hat trick against the Buffalo Sabres on 4-11-2018
>recorded a hat trick against the Toronto Maple Leafs on 7-2-2022

Injuries & Suspensions
----------------------

National Team
----------------------



Back to the top


Dmitri Kulikov D
Born: 29/10/1990 Age: 31
Condition: 100 (Healthy)
Salary: 2 500 000$ Contract left: 2 year(s)
Status: is happy to play for the team.
PLAYER SKILLS
Shooting: Good Playmaking: Good Stickhandling: Good
Checking: Good Positioning: Good Hitting: Good
Skating: Good Endurance: Mediocre Penalty: Good
Faceoffs: Mediocre Leadership: Average Strength: Good
Fighting: Poor

NHL Statistics 2021-2022: 82. 2+17=19 +1 6 PIM
NHL totals: 761. 23 + 118 = 141 546 PIM

Regular season extrastats:

PPG: 2 SHG: 0 GWG: 0 +/-: 1 Shots: 38 Pct: 5.26%
Giveaways: 35 Takeaways: 157 Shots blocked: 33
Hits given: 107 Hits taken: 66 Fights: 0 Fights won: 0
Faceoffs: 0 Faceoffs won: 0 %: 0,0

Streaks, records and weekly stats:

Current streaks: GP: 431 , G:-1 , PTS:-1
Best streaks: G: 1 , PTS: 3
Records: G: 6 A: 25 PTS: 31

This week NHL: 0. 0+ 0= 0
This month NHL: 4. 1+ 0= 1
Last NHL game:
SEASON RATINGS
8-6-6-6-6-7-6-7-6-6-6-7-7-7-7-7-6-6-7-7-6-8-8-7-6-7-8-6-5-7-8-7-7-7-7-6-7-6-7-7-7-8-7-6-8-7-6-6-7-7-7-8-7-6-6-7-7-6-6-7-7-6-6-7-8-7-7-6-8-7-9-6-6-7-5-8-7-7-8-6-8-6-
PLAYER HISTORY
Transactions
----------------------

Awards & All-Stars
----------------------

Stanley Cups
----------------------

Player of the Month
----------------------

Player of the Week
----------------------

Milestones
----------------------

Hat-tricks
----------------------

Injuries & Suspensions
----------------------

National Team
----------------------
>named to Team Russia for World Championships 2021
>registered 1 goals and 1 assists for 2 points with +/- 2 in 4 games with Team Russia in the World Championships 2021



Back to the top


Kristian Vesalainen C
Born: 9/7/1997 Age: 24
Condition: 100 (Healthy)
Salary: 5 500 000$ Contract left: 3 year(s)
Status: is happy to play for the team.
PLAYER SKILLS
Shooting: Very Good Playmaking: Very Good Stickhandling: Very Good
Checking: Good Positioning: Good Hitting: Good
Skating: Excellent Endurance: Very Good Penalty: Good
Faceoffs: Very Good Leadership: Average Strength: Good
Fighting: Mediocre

NHL Statistics 2021-2022: 82. 33+39=72 -8 24 PIM
NHL totals: 516. 150 + 178 = 328 236 PIM

Regular season extrastats:

PPG: 4 SHG: 1 GWG: 7 +/-: -8 Shots: 238 Pct: 13.87%
Giveaways: 80 Takeaways: 11 Shots blocked: 37
Hits given: 132 Hits taken: 175 Fights: 0 Fights won: 0
Faceoffs: 1331 Faceoffs won: 650 %: 48,8

Streaks, records and weekly stats:

Current streaks: GP: 259 , G: 2 , PTS: 3
Best streaks: G: 4 , PTS: 6
Records: G: 30 A: 32 PTS: 58

This week NHL: 0. 0+ 0= 0
This month NHL: 4. 2+ 3= 5
Last NHL game:
SEASON RATINGS
7-7-8-8-7-6-6-8-7-6-8-6-7-6-7-5-8-7-8-7-8-8-8-7-6-10-9-8-6-8-8-8-8-7-9-7-6-8-7-9-6-7-9-8-7-7-7-7-7-9-6-8-9-7-7-7-9-8-7-8-7-7-8-7-7-8-9-7-6-7-8-7-7-7-10-9-8-10-7-7-8-9-
PLAYER HISTORY
Transactions
----------------------

Awards & All-Stars
----------------------

Stanley Cups
----------------------

Player of the Month
----------------------

Player of the Week
----------------------
>named Player Of The Week on 18-5-2019

Milestones
----------------------

Hat-tricks
----------------------

Injuries & Suspensions
----------------------
>suffered knee injury on 1-4-2019, sidelined for almost a month

National Team
----------------------
>named to Team USA for World Championships 2021
>registered 3 goals and 3 assists for 6 points with +/- 4 in 6 games with Team USA in the World Championships 2021
>won gold with Team USA in the World Championships 2021



Back to the top


Boone Jenner C
Born: 15/6/1993 Age: 28
Condition: 100 (Healthy)
Salary: 5 000 000$ Contract left: 4 year(s)
Status: is happy to play for the team.
PLAYER SKILLS
Shooting: Very Good Playmaking: Good Stickhandling: Good
Checking: Good Positioning: Good Hitting: Good
Skating: Good Endurance: Excellent Penalty: Good
Faceoffs: Good Leadership: Good Strength: Good
Fighting: Good

NHL Statistics 2021-2022: 82. 30+33=63 -16 147 PIM
NHL totals: 676. 180 + 241 = 421 520 PIM

Regular season extrastats:

PPG: 2 SHG: 0 GWG: 5 +/-: -16 Shots: 211 Pct: 14.22%
Giveaways: 73 Takeaways: 10 Shots blocked: 40
Hits given: 105 Hits taken: 134 Fights: 29 Fights won: 7
Faceoffs: 1129 Faceoffs won: 494 %: 43,8

Streaks, records and weekly stats:

Current streaks: GP: 82 , G:-1 , PTS: 2
Best streaks: G: 3 , PTS: 7
Records: G: 33 A: 40 PTS: 73

This week NHL: 0. 0+ 0= 0
This month NHL: 4. 4+ 2= 6
Last NHL game:
SEASON RATINGS
6-7-9-7-7-7-6-7-7-7-10-8-7-7-7-7-7-7-8-8-8-8-9-7-9-7-7-7-8-7-6-7-7-6-7-6-8-6-7-6-7-7-6-7-6-6-5-6-7-8-7-8-7-8-7-7-5-8-5-8-8-6-6-6-7-8-8-6-8-7-6-7-8-7-7-8-10-7-8-7-9-7-
PLAYER HISTORY
Transactions
----------------------
>traded to Winnipeg Jets on 25-1-2018 [CBS traded C Boone Jenner, G Sergei Bobrovsky and L Sonny Milano to WIN for C Mark Scheifele and D Logan Stanley]

Awards & All-Stars
----------------------

Stanley Cups
----------------------

Player of the Month
----------------------

Player of the Week
----------------------
>named Player Of The Week on 5-1-2019

Milestones
----------------------

Hat-tricks
----------------------
>recorded a hat trick against the Carolina Hurricanes on 1-1-2021
>recorded a hat trick against the Detroit Red Wings on 5-4-2022

Injuries & Suspensions
----------------------
>suspended for 3 games on 6-1-2021

National Team
----------------------



Back to the top


Sonny Milano L
Born: 12/5/1996 Age: 25
Condition: 100 (Healthy)
Salary: 3 500 000$ Contract left: 1 year(s)
Status: is happy to play for the team.
PLAYER SKILLS
Shooting: Average Playmaking: Superb Stickhandling: Excellent
Checking: Average Positioning: Average Hitting: Average
Skating: Excellent Endurance: Excellent Penalty: Good
Faceoffs: Very Good Leadership: Average Strength: Good
Fighting: Poor

NHL Statistics 2021-2022: 82. 24+44=68 -18 24 PIM
NHL totals: 468. 83 + 120 = 203 188 PIM

Regular season extrastats:

PPG: 4 SHG: 0 GWG: 6 +/-: -18 Shots: 228 Pct: 10.53%
Giveaways: 74 Takeaways: 2 Shots blocked: 31
Hits given: 82 Hits taken: 151 Fights: 0 Fights won: 0
Faceoffs: 47 Faceoffs won: 27 %: 57,4

Streaks, records and weekly stats:

Current streaks: GP: 362 , G:-4 , PTS: 3
Best streaks: G: 2 , PTS: 5
Records: G: 22 A: 25 PTS: 43

This week NHL: 0. 0+ 0= 0
This month NHL: 4. 0+ 6= 6
Last NHL game:
SEASON RATINGS
7-7-6-9-6-6-9-7-7-7-7-7-6-6-7-5-7-6-8-6-9-7-8-10-7-6-7-5-9-7-6-7-7-6-8-6-6-7-6-8-7-6-7-6-5-8-6-7-8-10-7-8-7-8-8-7-7-7-7-7-8-7-8-5-7-7-7-7-9-6-7-6-7-8-8-7-9-8-7-8-8-8-
PLAYER HISTORY
Transactions
----------------------
>traded to Winnipeg Jets on 25-1-2018 [CBS traded C Boone Jenner, G Sergei Bobrovsky and L Sonny Milano to WIN for C Mark Scheifele and D Logan Stanley]

Awards & All-Stars
----------------------

Stanley Cups
----------------------

Player of the Month
----------------------

Player of the Week
----------------------
>named Player Of The Week on 25-4-2020
>named Player Of The Week on 4-12-2021

Milestones
----------------------

Hat-tricks
----------------------
>recorded a hat trick against the Tampa Bay Lightning on 1-12-2021

Injuries & Suspensions
----------------------

National Team
----------------------



Back to the top


Danny Dekeyser D
Born: 7/3/1990 Age: 32
Condition: 100 (Healthy)
Salary: 5 000 000$ Contract left: 1 year(s)
Status: is happy to play for the team.
PLAYER SKILLS
Shooting: Good Playmaking: Good Stickhandling: Good
Checking: Very Good Positioning: Very Good Hitting: Good
Skating: Good Endurance: Good Penalty: Good
Faceoffs: Mediocre Leadership: Average Strength: Good
Fighting: Poor

NHL Statistics 2021-2022: 82. 5+27=32 -7 20 PIM
NHL totals: 411. 36 + 127 = 163 84 PIM

Regular season extrastats:

PPG: 0 SHG: 0 GWG: 1 +/-: -7 Shots: 61 Pct: 8.2%
Giveaways: 33 Takeaways: 34 Shots blocked: 74
Hits given: 179 Hits taken: 73 Fights: 0 Fights won: 0
Faceoffs: 0 Faceoffs won: 0 %: 0,0

Streaks, records and weekly stats:

Current streaks: GP: 417 , G:-17 , PTS:-7
Best streaks: G: 2 , PTS: 6
Records: G: 10 A: 29 PTS: 39

This week NHL: 0. 0+ 0= 0
This month NHL: 4. 0+ 0= 0
Last NHL game:
SEASON RATINGS
7-7-7-7-6-6-7-7-7-8-6-7-6-8-8-6-6-6-7-6-7-6-6-8-7-9-7-7-7-6-7-9-7-7-7-7-6-6-5-7-6-7-7-9-7-6-8-7-7-7-6-7-7-7-7-6-8-8-6-8-7-8-8-6-9-6-9-6-7-8-7-7-9-6-9-6-7-6-9-6-6-7-
PLAYER HISTORY
Transactions
----------------------
>traded to Pittsburgh Penguins on 14-12-2017 [DET traded D Danny Dekeyser and G Petr Mrazek to PIT for D Justin Schultz and G Matt Murray]
>traded to Winnipeg Jets on 27-1-2020 [WIN traded C Marko Dano and D Dustin Byfuglien to PIT for D Danny Dekeyser, D Mitchell Vande Sompel and C Dylan Strome]

Awards & All-Stars
----------------------

Stanley Cups
----------------------

Player of the Month
----------------------

Player of the Week
----------------------

Milestones
----------------------
>scored his first NHL point on 5-10-2017 against the Buffalo Sabres assisting on a goal by Frans Nielsen
>played his first NHL game on 5-10-2017
>scored his first NHL goal on 12-10-2017 against the Chicago Blackhawks

Hat-tricks
----------------------

Injuries & Suspensions
----------------------

National Team
----------------------
>named to Team USA for World Championships 2018
>named to Team USA for World Championships 2019
>registered 0 goals and 7 assists for 7 points with +/- 4 in 6 games with Team USA in the World Championships 2019
>won bronze with Team USA in the World Championships 2019
>named to Team USA for World Championships 2021
>registered 0 goals and 2 assists for 2 points with +/- -1 in 6 games with Team USA in the World Championships 2021
>won gold with Team USA in the World Championships 2021



Back to the top


Jaroslav Halak G
Born: 13/5/1985 Age: 36
Condition: 100 (Healthy)
Salary: 2 750 000$ Contract left: 2 year(s)
Status: wants more icetime.
PLAYER SKILLS
Glove: Very Good Blocker: Very Good Stickhandling: Very Good
Pads: Excellent Angles: Very Good Agility: Excellent
Skating: Very Good Endurance: Mediocre Penalty: Very Good
Rebounds: Very Good Leadership: Good Strength: Good
Fighting: Very Bad

NHL Statistics 2021-2022: 11 GP, 666 mins, 33 GA, 0 EN, 0 SO, 2,97 GAA,
W-L-T: 6-4-1 Saves: 238 S%,878
NHL totals: 251 GP, 505 GA, 6 SO, 3862 saves

Regular season extrastats:

GA: 33 Shutouts: 0 Saves: 238 Save pct: 86.13%
Minutes: 666 EN:0 GAA: 2,97

Streaks, records and weekly stats:

Records: GAA: 3 SO: 7 Save%: 90

Last NHL game:
SEASON RATINGS
s-s-s-s-s-s-s-s-s-s-s-s-s-s-s-s-s-s-s-s-s-s-s-s-s-s-s-s-s-s-s-s-s-s-s-s-s-s-s-s-s-s-s-s-s-s-s-s-s-s-s-s-s-s-s-s-s-s-s-s-s-s-s-s-s-s-s-s-s-s-s-6-7-4-6-7-8-6-6-6-9-8-
PLAYER HISTORY
Transactions
----------------------
>traded to New Jersey Devils on 26-12-2017 [NYI traded G Jaroslav Halak to NJ for C Michael Latta]
>traded to Columbus Blue Jackets on 14-6-2018 [NJ traded G Jaroslav Halak to CBS for CBS's round 4 pick in 2019]
>traded to Toronto Maple Leafs on 13-3-2019 [CBS traded G Jaroslav Halak to TOR for G Kasimir Kaskisuo and TOR's round 4 pick in 2019]

Awards & All-Stars
----------------------
>named to Team World in 2019 All-Star Game

Stanley Cups
----------------------

Player of the Month
----------------------

Player of the Week
----------------------

Milestones
----------------------

Hat-tricks
----------------------

Injuries & Suspensions
----------------------

National Team
----------------------
>named to Team Slovakia for World Championships 2019
>registered 3 wins and allowed 14 goals on 78 shots in 4 games with Team Slovakia in the World Championships 2019



Back to the top


Mitchell Vande Sompel D
Born: 11/2/1997 Age: 25
Condition: 100 (Healthy)
Salary: 1 300 000$ Contract left: 2 year(s)
Status: is happy to play for the team.
PLAYER SKILLS
Shooting: Good Playmaking: Good Stickhandling: Good
Checking: Good Positioning: Good Hitting: Mediocre
Skating: Very Good Endurance: Good Penalty: Good
Faceoffs: Mediocre Leadership: Mediocre Strength: Good
Fighting: Poor

NHL Statistics 2021-2022: 82. 4+14=18 +6 18 PIM
NHL totals: 180. 9 + 33 = 42 63 PIM

Regular season extrastats:

PPG: 2 SHG: 0 GWG: 0 +/-: 6 Shots: 30 Pct: 13.33%
Giveaways: 25 Takeaways: 54 Shots blocked: 30
Hits given: 27 Hits taken: 52 Fights: 0 Fights won: 0
Faceoffs: 0 Faceoffs won: 0 %: 0,0

Streaks, records and weekly stats:

Current streaks: GP: 155 , G:-31 , PTS: 1
Best streaks: G: 2 , PTS: 2
Records: G: 4 A: 14 PTS: 18

This week NHL: 0. 0+ 0= 0
This month NHL: 4. 0+ 1= 1
Last NHL game:
SEASON RATINGS
6-5-6-6-5-7-6-6-6-7-4-6-7-7-5-6-6-6-7-6-7-7-6-5-7-7-6-5-7-6-9-5-4-5-5-5-6-5-6-5-4-5-4-5-5-5-5-4-6-5-6-5-5-5-4-6-7-7-6-7-7-6-6-6-7-8-7-7-6-6-6-6-6-6-5-6-6-6-5-5-7-7-
PLAYER HISTORY
Transactions
----------------------
>traded to Pittsburgh Penguins on 15-11-2019 [PIT traded R Zack Kassian to NYI for D Mitchell Vande Sompel]
>traded to Winnipeg Jets on 27-1-2020 [WIN traded C Marko Dano and D Dustin Byfuglien to PIT for D Danny Dekeyser, D Mitchell Vande Sompel and C Dylan Strome]

Awards & All-Stars
----------------------
>named to AHL 1st All-Star Team in season 2017-2018

Stanley Cups
----------------------

Player of the Month
----------------------

Player of the Week
----------------------

Milestones
----------------------
>scored his first NHL point on 16-12-2019 against the Montreal Canadiens assisting on a goal by Eric Fehr
>scored his first NHL goal on 17-1-2020 against the Anaheim Mighty Ducks

Hat-tricks
----------------------

Injuries & Suspensions
----------------------

National Team
----------------------



Back to the top


Dylan Strome C
Born: 7/3/1997 Age: 25
Condition: 100 (Healthy)
Salary: 3 600 000$ Contract left: 5 year(s)
Status: is happy to play for the team.
PLAYER SKILLS
Shooting: Good Playmaking: Good Stickhandling: Good
Checking: Good Positioning: Good Hitting: Very Good
Skating: Very Good Endurance: Very Good Penalty: Good
Faceoffs: Good Leadership: Mediocre Strength: Very Good
Fighting: Good

NHL Statistics 2021-2022: 82. 10+14=24 +9 49 PIM
NHL totals: 373. 63 + 77 = 140 291 PIM

Regular season extrastats:

PPG: 0 SHG: 1 GWG: 2 +/-: 9 Shots: 96 Pct: 10.42%
Giveaways: 61 Takeaways: 147 Shots blocked: 28
Hits given: 118 Hits taken: 93 Fights: 9 Fights won: 1
Faceoffs: 765 Faceoffs won: 348 %: 45,5

Streaks, records and weekly stats:

Current streaks: GP: 379 , G:-8 , PTS:-5
Best streaks: G: 2 , PTS: 3
Records: G: 16 A: 25 PTS: 41

This week NHL: 0. 0+ 0= 0
This month NHL: 4. 0+ 0= 0
Last NHL game:
SEASON RATINGS
6-7-8-6-7-5-8-7-6-4-6-5-5-5-6-5-6-6-6-6-5-7-5-6-6-8-8-7-7-6-7-5-4-5-7-8-5-7-5-7-5-6-6-7-6-7-6-4-6-7-6-7-8-7-6-7-8-7-7-8-6-6-7-7-7-7-6-6-7-5-5-4-7-7-6-5-6-7-8-6-6-6-
PLAYER HISTORY
Transactions
----------------------
>traded to Pittsburgh Penguins on 9-1-2018 [ARI traded C Dylan Strome and D Kyle Capobianco to PIT for R Phil Kessel]
>traded to Winnipeg Jets on 27-1-2020 [WIN traded C Marko Dano and D Dustin Byfuglien to PIT for D Danny Dekeyser, D Mitchell Vande Sompel and C Dylan Strome]

Awards & All-Stars
----------------------

Stanley Cups
----------------------

Player of the Month
----------------------

Player of the Week
----------------------

Milestones
----------------------
>scored his first NHL point on 27-10-2017 against the Anaheim Mighty Ducks assisting on a goal by Alexandre Burrows
>played his first NHL game on 27-10-2017
>scored his first NHL goal on 12-1-2018 against the New York Islanders

Hat-tricks
----------------------
>recorded a hat trick against the Florida Panthers on 1-2-2020

Injuries & Suspensions
----------------------

National Team
----------------------



Back to the top


Rasmus Sandin D
Born: 11/5/2000 Age: 21
Condition: 100 (Healthy)
Salary: 2 000 000$ Contract left: 2 year(s)
Status: is happy to play for the team.
PLAYER SKILLS
Shooting: Good Playmaking: Good Stickhandling: Good
Checking: Average Positioning: Mediocre Hitting: Average
Skating: Good Endurance: Average Penalty: Mediocre
Faceoffs: Good Leadership: Average Strength: Mediocre
Fighting: Bad

NHL Statistics 2021-2022: 0. 0+0=0 +0 0 PIM
NHL totals: 18. 2 + 3 = 5 6 PIM

Regular season extrastats:

PPG: 0 SHG: 0 GWG: 0 +/-: 0 Shots: 0 Pct: 0%
Giveaways: 0 Takeaways: 0 Shots blocked: 0
Hits given: 0 Hits taken: 0 Fights: 0 Fights won: 0
Faceoffs: 0 Faceoffs won: 0 %: 0,0

Streaks, records and weekly stats:

Current streaks: GP: 0 , G: 0 , PTS: 0
Best streaks: G: 0 , PTS: 0
Records: G: 2 A: 3 PTS: 5

This week NHL: 0. 0+ 0= 0
This month NHL: 0. 0+ 0= 0
Last NHL game:
SEASON RATINGS
s-s-s-s-s-s-s-s-s-s-s-s-s-s-s-s-s-s-s-s-s-s-s-s-s-s-s-s-s-s-s-s-s-s-s-s-s-s-s-s-s-s-s-s-s-s-s-s-s-s-s-s-s-s-s-s-s-s-s-s-s-s-s-s-s-s-s-s-s-s-s-s-s-s-s-s-s-s-s-s-s-s-
PLAYER HISTORY
Transactions
----------------------
>drafted by Winnipeg Jets in round 1 (28 overall) year 2018 (CSB 33)

Awards & All-Stars
----------------------

Stanley Cups
----------------------

Player of the Month
----------------------

Player of the Week
----------------------

Milestones
----------------------
>played his first NHL game on 2-12-2020
>scored his first NHL point on 4-12-2020 against the Boston Bruins assisting on a goal by Sonny Milano
>scored his first NHL goal on 4-12-2020 against the Boston Bruins

Hat-tricks
----------------------

Injuries & Suspensions
----------------------

National Team
----------------------



Back to the top



Back to the top